The_Stand - Joyful Noise Productions Home Page

advertisement
-----------------------HILLSONG UNITED - THE STAND--------------------------Tabbed by: Brandon Canning
Email: [email protected]
Intro: A
Verse 1:
A
You stood before creation
D
eternity in Your hand
A/C#
F#m
You spoke the earth into motion
D
My soul now to stand
A
You stood before my failure
D
And carried the cross for my shame
A/C#
F#m
My sin weighed upon Your shoulders
D
My soul now to stand
Pre-Chorus:
e|----------------------|
B|---------9----10----9-|
G|-9/11---9----9-----9--|
D|------11---11----11---| X4
A|----------------------|
E|----------------------|
A
e|------------------------12-|
B|-------9----10----12----10-|
G|-11---9----9-----9------9--|
D|----11---11----11-------11-|
A|---------------------------|
E|---------------------------|
Verse 2:
A
So I'll walk upon salvation
D
Your Spirit alive in me
A/C#
F#m
This life to declare Your promise
D
My soul now to stand
Pre-Chorus:
e|--------------------|
e|-------------------9-|
B|-------9----10----9-|
B|---------9----10-----|
G|-11---9----9-----9--|
G|-9/11---9----9----9--|
D|----11---11----11---| X3 D|------11---11---11---|
A|--------------------|
A|---------------------|
E|--------------------|
E|---------------------|
e|-----------------------------------------9-------------9/7-|
B|---------9----10----9----------9----10-------------9-------|
G|-9/11---9----9-----9---9/11---9----9----9—-9/11---9--------|
D|------11---11----11---------11---11---11--------11---------|
A|-----------------------------------------------------------|
E|-----------------------------------------------------------|
Solo:
e|-------------12--12---------------------------|
B|-14-10-14-10---10--10-12-10-12-10-14-10-15-10-|
G|----------------------------------------------| X 8
D|----------------------------------------------|
A|----------------------------------------------|
E|----------------------------------------------|
Chorus: Play bar chords or play around on the A note played in first Prechorus
D
A
So I'll stand
E
F#m
D
With arms high and heart abandoned
A
E
F#m
D
In awe of the One who gave it all
A
I'll stand
E
F#m
My soul Lord to You surrendered
D
A
E
F#m
All I am is Yours
Outro/ Pre-Chorus:
D
Bm
So what can I say
F#m A
And what could I do
Bm7
E
But offer this heart O God
F#m
(End on A)
Completely to You
Download
Random flashcards
Radiobiology

39 Cards

Radioactivity

30 Cards

African nomads

18 Cards

Create flashcards